Amen - Ck Killer (var.7) Notas de guitarra (tab) descargar gratis o reproducir online

Notas de guitarra (tab) para Ck Killer (var.7) de Amen descargar gratis, leer o reproducir online. Info de archivo: .txt, 5.21 kb, 63 visualizaciones y 0 descargas.

Descargar notas de guitarra (tab) "Ck Killer (var.7)" (Amen)

Amen Nombre de grupo
Ck Killer Nombre de canción
Notas de guitarra (tabs) Tipo de nota
5.21 kb Tamaño de archivo
.TXT Tipo de archivo
63 visualizaciones
0 descargas
 
Eres un robot?

Ck Killer (var.7) notas de guitarra (tab) leer y reproducir online

                    CK Killer by Amen (from the album 'We have come for your parents')
tabbed by John Halfpenny (jhalfpenny@excite.com)

Drop D tuning. Detune a little.


Intro

both guitars
e ----------------------------------------------------------------|
B ----------------------------------------------------------------|
G ----------------------------------------------------------------|
D 0-------0-------0-------0-------0-------0-------0-------0-------|
A 0-------0-------0-------0-------0-------0-------0-------0-------|
D 0-------0-------0-------0-------0-------0-------0-------0-------|


guitar 1
e ----------------------------------------------------------------|
B ----------------------------------------------------------------|
G ----------------------------------------------------------------|
D 0-------------------------------0-------------------------------|
A 0-------------------------------0-------------------------------|
D 0-------------------------------0-------------------------------|
                                                                  |
guitar 2                                                          |
e ----------------------------------------------------------------|
B ----------------------------------------------------------------|
G ----------------------------------------------------------------|
D ----------------------------------------------------------------|
A ------------------6-6-6-3-3-----------------------6-6-6-3-3-----|
D 0-0-0-6-6-6-3-3-3-----------3-3-0-0-0-6-6-6-3-3-3-----------3-3-|


both guitars
e ----------------------------------------------------------------|
B ----------------------------------------------------------------|
G ------------------8-8-8-5-5-----------------------8-8-8-5-5-----|
D 0-0-0-6-6-6-3-3-3-8-8-8-5-5-3-3-0-0-0-6-6-6-3-3-3-8-8-8-5-5-3-3-|
A 0-0-0-6-6-6-3-3-3-6-6-6-3-3-3-3-0-0-0-6-6-6-3-3-3-6-6-6-3-3-3-3-|
D 0-0-0-6-6-6-3-3-3-----------3-3-0-0-0-6-6-6-3-3-3-----------3-3-|

there is a fill which accompanies the above on some vocal sections along these lines
guitar3
e ----------------------------------------------------------------|
B ----------------------------------------------------------------|
G 7-6---7-6---7-6---7-6---7-6-7-6-7-6---7-6---7-6---7-6---7-6-7-6-|
D ----------------------------------------------------------------|
A ----------------------------------------------------------------|
D ----------------------------------------------------------------|


Verse

e ----------------------------------------------------------------|
B ----------------------------------------------------------------|
G --------------------------------5-5-5-8-8-8-7-7-7-1010109-9-12--|
D x-x-x-x-x-x-x-x-x-x-x-x-x-x-x-x-5-5-5-8-8-8-7-7-7-1010109-9-12--|
A x-x-x-x-x-x-x-x-x-x-x-x-x-x-x-x-3-3-3-6-6-6-5-5-5-8-8-8-7-7-10--|
D x-x-x-x-x-x-x-x-x-x-x-x-x-x-x-x---------------------------------|

e ----------------------------------------------------------------|
B ----------------------------------------------------------------|
G --------------------------------3-2-0-3-2-0-3-2-0-3-2-0-3-2-0---|
D x-x-x-x-x-x-x-x-x-x-x-x-x-x-x-x-3-2-0-3-2-0-3-2-0-3-2-0-3-2-0---|
A x-x-x-x-x-x-x-x-x-x-x-x-x-x-x-x---------------------------------|
D x-x-x-x-x-x-x-x-x-x-x-x-x-x-x-x---------------------------------|

e ----------------------------------------------------------------|
B ----------------------------------------------------------------|
G --------------------------------5-5-5-8-8-8-7-7-7-1010109-9-12\\|
D x-x-x-x-x-x-x-x-x-x-x-x-x-x-x-x-5-5-5-8-8-8-7-7-7-1010109-9-12\\|
A x-x-x-x-x-x-x-x-x-x-x-x-x-x-x-x-3-3-3-6-6-6-5-5-5-8-8-8-7-7-10\\|
D x-x-x-x-x-x-x-x-x-x-x-x-x-x-x-x---------------------------------|


Chorus

e ----------------------------------------------------------------|
B ----------------------------------------------------------------|
G ----------------------------------------------------------------|
D 0-----0-0-0---0-3-----3-3-3---3-6-----6-6-6---6-8-8-8-8-10101010|
A 0-----0-0-0---0-3-----3-3-3---3-6-----6-6-6---6-8-8-8-8-10101010|
D 0-----0-0-0---0-3-----3-3-3---3-6-----6-6-6---6-8-8-8-8-10101010|

e ----------------------------------------------------------------|
B ----------------------------------------------------------------|
G ----------------------------------------------------------------|
D 0-----0-0-0---0-3-----3-3-3---3-6-------------------------------|
A 0-----0-0-0---0-3-----3-3-3---3-6-------------------------------|
D 0-----0-0-0---0-3-----3-3-3---3-6-------------------------------|


Lyrics

Attention! 

Well I was born an amputee inside here
Who can't turn and pledge allegance
We just fall behind and we just fall behind
We default your procreation
We default your assassination 

Paralyzed!
We're paralyzed!

We're born from you, we've come to
Cause Calvin Klein's the killer
They want to look like you
Cause Calvin Klein's the killer 

This fashion is a warning sign
You were shot for your division
We just fall behind and we just fall in line
We default your procreation
We default your assassination 

Paralyzed!
We're paralyzed!

Cause Calvin Klein's the killer
Versace now is the killer
Calvin Klein the killer
Versace now is the killer 

Paralyzed!                    

Comentarios para notas de guitarra (tab) — Ck Killer (var.7) (Amen)

Otras notas para Ck Killer (var.7) de Amen:

Las últimas notas vistas de Amen: