Amen - Daycare Tourniquet (var.3) Notas de guitarra (tab) descargar gratis o reproducir online

Notas de guitarra (tab) para Daycare Tourniquet (var.3) de Amen descargar gratis, leer o reproducir online. Info de archivo: .txt, 4.05 kb, 68 visualizaciones y 0 descargas.

Descargar notas de guitarra (tab) "Daycare Tourniquet (var.3)" (Amen)

Amen Nombre de grupo
Daycare Tourniquet Nombre de canción
Notas de guitarra (tabs) Tipo de nota
4.05 kb Tamaño de archivo
.TXT Tipo de archivo
68 visualizaciones
0 descargas
 
Eres un robot?

Daycare Tourniquet (var.3) notas de guitarra (tab) leer y reproducir online

                    Daycare Tourniquet Tab by Amen, 


Song: Daycare Tourniquet
Album: DEATH BEFORE MUSICk (Japanese Version)
Written by: Casey Choas
Tabbed by BRAINDEAD
Tuning: Drop D [D,A,D,G,b,e]


e|--------|
b|--------|
G|--------|
D|--5-7---|repeated a few times
A|--------|
D|--------|

INTRO:
e|--------------------------------------------------|
b|--------------------------------------------------|
G|--------------------------------------------------|
D|-2202-02202-02202-02203-02202-02202-05555-03333---|
A|-2202-02202-02202-02203-02202-02202-05555-03333---|
D|-2202-02202-02202-02203-02202-02202-05555-03333---|


VERSE:
e|-------------------------------------------------------------------|
b|---------------------------------------------------------7-bend-up-|
G|-0--------------0----------0--------0-----------0------------------|
D|--202-023202-02--202-023202-20-(x3)--202-023202--02--202-----------|
A|-------------------------------------------------------------------|
D|-------------------------------------------------------------------|

cHORUS:
e|--------------------------------------------------|
b|--------------------------------------------------|
G|--------------------------------------------------|
D|-2202-02203-02202-02203-02202-02203-02202-02203---|
A|-2202-02203-02202-02203-02202-02203-02202-02203---|
D|-2202-02203-02202-02203-02202-02203-02202-02203---|

CONT..
e|-------------------------------------------------|
b|-------------------------------------------------|
G|-------------------------------------------------|
D|--55555555-77777777-3333333333333330-------------|
A|--55555555-77777777-3333333333333330--(x2)-------|
D|--55555555-77777777-3333333333333330-------------|

INTRO:
e|--------------------------------------------------|
b|--------------------------------------------------|
G|--------------------------------------------------|
D|-2202-02202-02202-02203-02202-02202-05555-03333---|
A|-2202-02202-02202-02203-02202-02202-05555-03333---|
D|-2202-02202-02202-02203-02202-02202-05555-03333---|

2ND VERSE:
e|--------------------------------------------------------------------|
b|----------------------------------------------------------7-bend-up-|
G|-0---------------0----------0--------0-----------0------------------|
D|--202-023202-02---202-023202-20-(x1)--202-023202--02--202-----------|
A|--------------------------------------------------------------------|
D|--------------------------------------------------------------------|

cHORUS:
e|--------------------------------------------------|
b|--------------------------------------------------|
G|--------------------------------------------------|
D|-2202-02203-02202-02203-02202-02203-02202-02203---|
A|-2202-02203-02202-02203-02202-02203-02202-02203---|
D|-2202-02203-02202-02203-02202-02203-02202-02203---|

CONT..
e|-------------------------------------------------|
b|-------------------------------------------------|
G|-------------------------------------------------|
D|--55555555-77777777-3333333333333330-------------|
A|--55555555-77777777-3333333333333330--(x2)-------|
D|--55555555-77777777-3333333333333330-------------|

BRIDGE:
e|--------------------------------------|
b|--------------------------------------|
G|----0-------0-------0---0---0---0-----|
D|--02-202--02-202--02-202-202-202-202--|
A|--------------------------------------|
D|--------------------------------------|

BRIDGE: guitar 2
e|-------------------|
b|-------------------|
G|-------------------|
D|----5--7--3--------|
A|----5--7--3--(x2)--|
D|----5--7--3--------|

INTRO:
e|--------------------------------------------------|
b|--------------------------------------------------|
G|--------------------------------------------------|
D|-2202-02202-02202-02203-02202-02202-05555-03333---|
A|-2202-02202-02202-02203-02202-02202-05555-03333---|
D|-2202-02202-02202-02203-02202-02202-05555-03333---|

OUTRO:
e|---------------------------------------|
b|---------------------------------------|
G|-------------------------(END ON)------|
D|--2222-3333-5555-7777--------2---------|
A|--2222-3333-5555-7777--(X8)--2---------|
D|--2222-3333-5555-7777--------2---------|                    

Comentarios para notas de guitarra (tab) — Daycare Tourniquet (var.3) (Amen)

Otras notas para Daycare Tourniquet (var.3) de Amen:

Las últimas notas vistas de Amen: